Make space for Me in Your Coffin (Guitar Tab)

By Lizziemackie

In the process of reformatting this so it fits on the page


Make Space for Me in Your Coffin - Guitar Tab
Lyrics by Sarah Daly Music by Lizzie Mackie

Capo on third fret
Normal tuning

h - Hammer on
p - pick off

Intro
e
---------------------------------------------------------------------------------------------

b
---3-------------------3-------------------3------------------------3--------------------

g
--------0------0h2--------2------p0------------0-------0h2------------2-------p0--

d
---0-------0--------0---------0------------0--------0-----------0------------0---------

a
---------------------------------------------------------------------------------------------

e
-3---3---------3---------3------------3------3----------3------------3----------------


e
-------------------3-------------------------------------3------------------------2--------

b
-----3-------------------3---------3-----3-------------------3----------3----------------

g
-----------0---------------------0---------------0---------------------0---------2-----2-

d
-----2--------2------2-------2-----------0--------0------0-------0-------0-------0----

a
--3-----3--------3---------3--------------------------------------------------------------

e
----------------------------------------3------3---------3-------3------------------------


e
--3-------2--------0---------------------------3-----------------------

b
------------------------3-------3----------------------3------------3--

g
------2---------2---------------------0--------------------------0-----

d
--0----------0-----------------2---------2--------2---------2--------

a
----------------------------3-------3----------3----------3------------

e
--------------------------------------------------------------------------



Verse
e
--------------------------------------------------------------------------------------

b
---3----------------------3---------------3--------------------3-------------------

g
---------0------0h2---------2----p0-----------0----0h2--------2-----p0-----

d
---0--------0---------0---------0--------0--------0-------0---------0-----------

a
--------------------------------------------------------------------------------------

e
-3----3--------3-----------3----------3------3------3---------3-----------------


e
--------------3---------------------------------3----------------------------------

b
---3----------------3--------3-----3---------------3-------3-----3-------------

g
---------0------------------0------------0-----------------0--------------0------

d
---0------0-----0------0----------0------0-----0------0---------2--------2---

a
------------------------------------------------------------------3------3---------

e
-3----3-----3--------3--------3-----3-------3------3---------------------------


e
-3------------------------------------------------3--------------------------------2-----------------

b
------3---------------3--------3----------------------3------------3------------------3---------

g
-----------------0--------------------0------------------------0-------------2------------2----

d
----2-------2----------------------------0------0---------0-----------0--------0-------------

a
-3------3---------------------0------------------------------------------------------------------

e
------------------------------3---------3----------3----------3--------------------------------------


e
--3-------2--------0------

b
------------------------3--

g
------2---------2---------

d
--0----------0------------

a
----------------------------

e
----------------------------



Outro
e
-------------------------------------------------2-----------------3------2-----------0------

b
-------3------------------3-----------------------------3--------------------------------3---

g
--------------0-------------------0------------2------------2--------2----------2-----------

d
-------0---------0-------2----------2----0--------0------------0----------0---------------

a
----------------------3--------3---------------------------------------------------------------

e
--3-------3------------------------------------------------------------------------------------


e
---------------------------------------------------------------------------------------------------------------

b
-----3----------------------------3---------------------3--------------------------3------------------------

g
------------0-------0h2--------------2------p0--------------0--------0h2------------2-------p0------

d
-----0----------0---------0---------------0------------0----------0-----------0------------0-------------

a
---------------------------------------------------------------------------------------------------------------

e
-3-------3----------3--------------3---------------3------3-----------3--------------3-------------------


e
-------------------------------------------------2-----------------3------2-----------0------

b
-------3------------------3-----------------------------3--------------------------------3---

g
--------------0-------------------0------------2------------2--------2----------2-----------

d
-------0---------0-------2----------2----0--------0------------0----------0---------------

a
----------------------3--------3---------------------------------------------------------------

e
--3-------3------------------------------------------------------------------------------------


e
-------------------------------------------------------

b
-----3----------------------------0------------------

g
------------0-------0h2--------------2------p0---

d
-----0----------0---------0---------------0--------

a
------------------------------------------------------

e
-3-------3----------3--------------3---------------


ok so i have gone though this all and made sure there are no mistakes but if you find one let me know.
If it is unclear i would love to help you out.

Document
Make space for Me in Your Coffin (Guitar Tab)

Created: Feb 02, 2010

Tags:

Document Media

Related Records:

Make Space for Me in Your Coffin
Make Space for Me in Your Coffin By Metaphorest
Dance Around the world: Dancers List
Dance Around the world: Dancers List By Lizziemackie
Destruction Myth -Tiny Story
Destruction Myth -Tiny Story By Metaphorest
Let Me
Let Me By Lizziemackie
make space for creativity
make space for creativity By fractaldust
How Machiavellian Are You?
How Machiavellian Are You? By Lizziemackie
The Bunnybaby's life giver
The Bunnybaby's life giver By Lizziemackie
maggie's request
maggie's request By moonbug
Shakespeare - Sonnet 18
Shakespeare - Sonnet 18 By Lizziemackie
Lets stay friends
Lets stay friends By arit
Reading needed!!
Reading needed!! By Lizziemackie
Make Space for me there is no final to this thing
Make Space for me there is no final to this thing By shywords